魂斗罗 吉他谱

原创 2005年05月31日 15:31:00
魂斗罗~~~
                                                                
E||----------5--------|--3-----------------|--0----------------|
B||-------------------|-----------3--------|-------------------|
G||-------------------|--------------------|-------------------|
D||-------------------|--------------------|-------------------|
A||-------------------|--------------------|-------------------|
E||-------------------|--------------------|-------------------| 


                                                    
------------------|----12------14--15--12------12--|
------------------|--------12--------------12------|
------------------|--------------------------------|
------------------|--------------------------------|
------------------|--------------------------------|
------------------|--------------------------------|


                                                                      
------14--15--12------12------14--|--15--12------12------14--15--12--|
--12--------------12------12------|----------12------12--------------|
----------------------------------|----------------------------------|
----------------------------------|----------------------------------|
----------------------------------|----------------------------------|
----------------------------------|----------------------------------|


                                                                      
------10------12--13--10------10--|------12--13--10------10------12--|
--12------10--------------10------|--10--------------10------10------|
----------------------------------|----------------------------------|
----------------------------------|----------------------------------|
----------------------------------|----------------------------------|
----------------------------------|----------------------------------|


                                                                      
--13--10------10------12--13--10--|------12------14--15--12------12--|
----------10------10--------------|--10------12--------------12------|
----------------------------------|----------------------------------|
----------------------------------|----------------------------------|
----------------------------------|----------------------------------|
----------------------------------|----------------------------------|


                                                                      
------14--15--12------12------14--|--15--12------12------14--15--12--|
--12--------------12------12------|----------12------12--------------|
----------------------------------|----------------------------------|
----------------------------------|----------------------------------|
----------------------------------|----------------------------------|
----------------------------------|----------------------------------|


                                                                      
------15------17--18--15------15--|------17--18--15------15------17--|
--12------15--------------15------|--15--------------15------15------|
----------------------------------|----------------------------------|
----------------------------------|----------------------------------|
----------------------------------|----------------------------------|
----------------------------------|----------------------------------|


                                                                      
--18--15------15------17--18--15--|------12------14--15--12------12--|
----------15------15--------------|--15------12--------------12------|
----------------------------------|----------------------------------|
----------------------------------|----------------------------------|
----------------------------------|----------------------------------|
----------------------------------|----------------------------------|


                                                                      
------14--15--12------12------14--|--15--12------12------14--15--12--|
--12--------------12------12------|----------12------12--------------|
----------------------------------|----------------------------------|
----------------------------------|----------------------------------|
----------------------------------|----------------------------------|
----------------------------------|----------------------------------|


                                                                      
------10------12--13--10------10--|------12--13--10------10------12--|
--12------10--------------10------|--10--------------10------10------|
----------------------------------|----------------------------------|
----------------------------------|----------------------------------|
----------------------------------|----------------------------------|
----------------------------------|----------------------------------|


                                                                      
--13--10------10------12--13--10--|------12------14--15--12------12--|
----------10------10--------------|--10------12--------------12------|
----------------------------------|----------------------------------|
----------------------------------|----------------------------------|
----------------------------------|----------------------------------|
----------------------------------|----------------------------------|


                                                                      
------14--15--12------12------14--|--15--12------12------14--15--12--|
--12--------------12------12------|----------12------12--------------|
----------------------------------|----------------------------------|
----------------------------------|----------------------------------|
----------------------------------|----------------------------------|
----------------------------------|----------------------------------|


                                                                      
------15------17--18--15------15--|------17--18--15------15------17--|
--12------15--------------15------|--15--------------15------15------|
----------------------------------|----------------------------------|
----------------------------------|----------------------------------|
----------------------------------|----------------------------------|
----------------------------------|----------------------------------|


                                   
--18--15------15------17--18--15--|
----------15------15--------------|
----------------------------------|
----------------------------------|
----------------------------------|
----------------------------------|


                                                                      
---------------------------------------------|-------------3--1-3--4-|
---------------------------------------------|-----------------------|
--17-15----------------------------------0---|--5--------------------|
--------17-15-17-15-13-12-13-12-10-8-8-----8-|-----------------------|
---------------------------------------8-----|-----------------------|
---------------------------------------------|-----------------------|


                                                                
--6----------------|-------------3--1-3--5-|-------------------|
-------------------|-----------------------|--4----------------|
-------------------|--5--------------------|-------------------|
-------------------|-----------------------|-------------------|
-------------------|-----------------------|-------------------|
-------------------|-----------------------|-------------------|


                                                                    
-------------3--1-3--4-|--6----------------|-------------3--1-3--5-|
-----------------------|-------------------|-----------------------|
--5--------------------|-------------------|--5--------------------|
-----------------------|-------------------|-----------------------|
-----------------------|-------------------|-----------------------|
-----------------------|-------------------|-----------------------|


                                                                         -------
------------|--3--3---5---6--6---3-6-8-|--5--5---6---8--8--6-8---|--4------------
----|--------------------------|-------------------------|-------------------|---
-----------------------|-------------------------|-------------------|-----------
---------------|-------------------------|-------------------|-------------------
-------|-------------------------|-------------------|--------------------------|
-------------------------|

                                                    
---------5---6--6---3-6-8-|--5--5---6---8----13----|
--8--8--------------------|------------------------|
--------------------------|------------------------|
--------------------------|------------------------|
--------------------------|------------------------|
--------------------------|------------------------|


                                                   
--15-13-15-13-22-20-18-17-15-13-15-13-------------|
--------------------------------------15-13-15-13-|
--------------------------------------------------|
--------------------------------------------------|
--------------------------------------------------|
--------------------------------------------------|


                                                              
---------------------------------|---------------------------|
---------------------------------|---------------------------|
------------------12--10--8-7----|-----------------------0---|
-----------12--13--------------8-|-----------0---------3-----|
---------------------------------|---------------6---3-------|
--15----15-----------------------|--8-8-8--8-----------------|


                                                     
------------------------|---------1--3-6----5-------|
------------------1-3---|--4----4---------------4-6-|
-------0-2---3----------|---------------------5-----|
--3---------------------|---------------------------|
------------------------|---------------------------|
------------------------|---------------------------|


                                                                 
--3-1-3--------1-3--6-5-6-5----|--3-1-3--------1-3--6-5-6-8--10-|
--------1--1-4---------------6-|--------1--1-4------------------|
-------------------------------|--------------------------------|
-------------------------------|--------------------------------|
-------------------------------|--------------------------------|
-------------------------------|--------------------------------|


                                                     
-------------------------|-----------1--3-6----5----|
-------------------------|--4-4-4--4----------------|
-------------------5-7---|--------------------------|
----------7---8----------|--------------------------|
--8----10----------------|--------------------------|
-------------------------|--------------------------|


                                                          
--3-3-3-3---3-3-3-3--3--1---|------------------------1---|
----------------------------|--4-4-4-4---4-4-4-4--4------|
----------------------------|----------------------------|
----------------------------|----------------------------|
----------------------------|----------------------------|
----------------------------|----------------------------|


                                                           
--3-3-3-3---3-3-3-3--3--1---|--------------1-3-5-6-5------|
----------------------------|--4-4-4-4---4------------6---|
----------------------------|-----------------------------|
----------------------------|-----------------------------|
----------------------------|-----------------------------|
----------------------------|-----------------------------|


                                                          
--6-6-6-6---6-6-6-6--6--5---|--3-3-3-3---3-3-3-3--3--5---|
----------------------------|----------------------------|
----------------------------|----------------------------|
----------------------------|----------------------------|
----------------------------|----------------------------|
----------------------------|----------------------------|


                                                           
--6-6-6-6---6-6-6-6--5--6---|--8-8-8-8---8-8-8-8----------|
----------------------------|---------------------------3-|
----------------------------|-----------------------0-5---|
----------------------------|-----------------------------|
----------------------------|-----------------------------|
----------------------------|-----------------------------|


                                                              
-----------------------3--3-1-3-|---------------------1--3---|
--4-3-4------1-3-4-3-4----------|--4-3-4------1-3--4---------|
--------0--0--------------------|--------0--0----------------|
--------------------------------|----------------------------|
--------------------------------|----------------------------|
--------------------------------|----------------------------|


                                                                    
-------------3--1-3--4-|--6----------------|-------------3--1-3--5-|
--1--------------------|-------------------|-----------------------|
-----------------------|-------------------|--5--------------------|
-----------------------|-------------------|-----------------------|
-----------------------|-------------------|-----------------------|
-----------------------|-------------------|-----------------------|


                                                                
-------------------|-------------3--1-3--4-|--6----------------|
--4----------------|-----------------------|-------------------|
-------------------|--5--------------------|-------------------|
-------------------|-----------------------|-------------------|
-------------------|-----------------------|-------------------|
-------------------|-----------------------|-------------------|
 


-------------3--1-3--5-|-------------------|--3--3---5---6--6---3-6-8-|
-----------------------|--4----------------|--------------------------|
--5--------------------|-------------------|--------------------------|
-----------------------|-------------------|--------------------------|
-----------------------|-------------------|--------------------------|
-----------------------|-------------------|--------------------------|


                                                                              
--5--5---6---8--8--6-8---|---------5---6--6---3-6-8-|--5--5---6---8----13----|
-------------------------|--8--8--------------------|------------------------|
-------------------------|--------------------------|------------------------|
-------------------------|--------------------------|------------------------|
-------------------------|--------------------------|------------------------|
-------------------------|--------------------------|------------------------|


                                                   
--15-13-15-13-22-20-18-17-15-13-15-13-------------|
--------------------------------------15-13-15-13-|
--------------------------------------------------|
--------------------------------------------------|
--------------------------------------------------|
--------------------------------------------------|


                                                              
---------------------------------|---------------------------|
---------------------------------|---------------------------|
------------------12--10--8-7----|-----------------------0---|
-----------12--13--------------8-|-----------0---------3-----|
---------------------------------|---------------6---3-------|
--15----15-----------------------|--8-8-8--8-----------------|


                                                     
------------------------|---------1--3-6----5-------|
------------------1-3---|--4----4---------------4-6-|
-------0-2---3----------|---------------------5-----|
--3---------------------|---------------------------|
------------------------|---------------------------|
------------------------|---------------------------|


                                                                 
--3-1-3--------1-3--6-5-6-5----|--3-1-3--------1-3--6-5-6-8--10-|
--------1--1-4---------------6-|--------1--1-4------------------|
-------------------------------|--------------------------------|
-------------------------------|--------------------------------|
-------------------------------|--------------------------------|
-------------------------------|--------------------------------|


                                                     
-------------------------|-----------1--3-6----5----|
-------------------------|--4-4-4--4----------------|
-------------------5-7---|--------------------------|
----------7---8----------|--------------------------|
--8----10----------------|--------------------------|
-------------------------|--------------------------|


                                                          
--3-3-3-3---3-3-3-3--3--1---|------------------------1---|
----------------------------|--4-4-4-4---4-4-4-4--4------|
----------------------------|----------------------------|
----------------------------|----------------------------|
----------------------------|----------------------------|
----------------------------|----------------------------|


                                                           
--3-3-3-3---3-3-3-3--3--1---|--------------1-3-5-6-5------|
----------------------------|--4-4-4-4---4------------6---|
----------------------------|-----------------------------|
----------------------------|-----------------------------|
----------------------------|-----------------------------|
----------------------------|-----------------------------|


                                                          
--6-6-6-6---6-6-6-6--6--5---|--3-3-3-3---3-3-3-3--3--5---|
----------------------------|----------------------------|
----------------------------|----------------------------|
----------------------------|----------------------------|
----------------------------|----------------------------|
----------------------------|----------------------------|


                                                           
--6-6-6-6---6-6-6-6--5--6---|--8-8-8-8---8-8-8-8----------|
----------------------------|---------------------------3-|
----------------------------|-----------------------0-5---|
----------------------------|-----------------------------|
----------------------------|-----------------------------|
----------------------------|-----------------------------|


                                                              
-----------------------3--3-1-3-|---------------------1--3---|
--4-3-4------1-3-4-3-4----------|--4-3-4------1-3--4---------|
--------0--0--------------------|--------0--0----------------|
--------------------------------|----------------------------|
--------------------------------|----------------------------|
--------------------------------|----------------------------|


                                                                                
-------------------|-------------------|--0----------------|--3----------------|
-------------------|--3----------------|-------------------|-------------------|
--2----------------|-------------------|-------------------|-------------------|
-------------------|-------------------|-------------------|-------------------|
-------------------|-------------------|-------------------|-------------------|
-------------------|-------------------|-------------------|-------------------|


                                                                    
--7----------------|------------------|--0--1-3--5-----------------|
-------------------|------------------|--------------6----0----8---|
-------------------|------------------|-----------------7----------|
-------------------|------------------|----------------------7-----|
-------------------|------------------|--------------------------0-|
-------------------|------------------|----------------------------|


                                                          
----------------------------|--0--1-3--5-----------------|
----------------------------|--------------6----0----8---|
----------------------------|-----------------7----------|
--------0-0-----------------|----------------------7-----|
------0-----0--3-3-0--------|--------------------------0-|
----8------------------3--2-|----------------------------|


                                                           
----------------------------|--5--3-5-7--5-7-8--7-8-10----|
----------------------------|-----------------------------|
----------------------------|-----------------------------|
--------0-0-----------------|-----------------------------|
------0-----0--3-3-0--------|-----------------------------|
----8------------------3--2-|-----------------------------|


                                                                 
--7----7-8--7-8-10--8-10-12----|-----0-----0-----------------0--|
-----8-------------------------|-----------------3-----1--------|
-------------------------------|--------------------------------|
-------------------------------|--------------------------------|
-------------------------------|-------0-0---0-0---0-0---0-0----|
-------------------------------|--3-----------------------------|


                                                              
-----0-----0-----------------0--|--0--1-3--5-----------------|
-----------------3-----1--------|--------------6----0----8---|
--------------------------------|-----------------7----------|
--------------------------------|----------------------7-----|
-------0-0---0-0---0-0---0-0----|--------------------------0-|
--3-----------------------------|----------------------------|


                                                          
----------------------------|--0--1-3--5-----------------|
----------------------------|--------------6----0----8---|
----------------------------|-----------------7----------|
--------0-0-----------------|----------------------7-----|
------0-----0--3-3-0--------|--------------------------0-|
----8------------------3--2-|----------------------------|


                                                           
----------------------------|--5--3-5-7--5-7-8--7-8-10----|
----------------------------|-----------------------------|
----------------------------|-----------------------------|
--------0-0-----------------|-----------------------------|
------0-----0--3-3-0--------|-----------------------------|
----8------------------3--2-|-----------------------------|


                                                                 
--7----7-8--7-8-10--8-10-12----|--------------------------------|
-----8-------------------------|--10----------------------------|
-------------------------------|-----12-9-7-9-7-5---5-----------|
-------------------------------|------------------7---7-5-7-----|
-------------------------------|--------------------------------|
-------------------------------|--------------------------------|


                                                     
-----------------------|---------------0------0--2--|
-----------------------|-------------3-----3--------|
-----------------------|--5--5-5-5-5----------------|
-----------------------|----------------------------|
----------7-7-7--8--8--|----------------------------|
-----------------------|----------------------------|


                                                          
---------------0------------|---------------0------0--2--|
--1--1-1-1-1-3-----3--1-0---|--1--1-1-1-1-3-----3--------|
----------------------------|----------------------------|
----------------------------|----------------------------|
----------------------------|----------------------------|
----------------------------|----------------------------|


                                                            
------0----0-2-0--2-3-2--3-5--|--0--1-3--5-----------------|
--1-3---3---------------------|--------------6----0----8---|
------------------------------|-----------------7----------|
------------------------------|----------------------7-----|
------------------------------|--------------------------0-|
------------------------------|----------------------------|


                                                          
----------------------------|--0--1-3--5-----------------|
----------------------------|--------------6----0----8---|
----------------------------|-----------------7----------|
--------0-0-----------------|----------------------7-----|
------0-----0--3-3-0--------|--------------------------0-|
----8------------------3--2-|----------------------------|


                                                           
----------------------------|--5--3-5-7--5-7-8--7-8-10----|
----------------------------|-----------------------------|
----------------------------|-----------------------------|
--------0-0-----------------|-----------------------------|
------0-----0--3-3-0--------|-----------------------------|
----8------------------3--2-|-----------------------------|


                                                                 
--7----7-8--7-8-10--8-10-12----|-----0-----0-----------------0--|
-----8-------------------------|-----------------3-----1--------|
-------------------------------|--------------------------------|
-------------------------------|--------------------------------|
-------------------------------|-------0-0---0-0---0-0---0-0----|
-------------------------------|--3-----------------------------|


                                                              
-----0-----0-----------------0--|--0--1-3--5-----------------|
-----------------3-----1--------|--------------6----0----8---|
--------------------------------|-----------------7----------|
--------------------------------|----------------------7-----|
-------0-0---0-0---0-0---0-0----|--------------------------0-|
--3-----------------------------|----------------------------|


                                                          
----------------------------|--0--1-3--5-----------------|
----------------------------|--------------6----0----8---|
----------------------------|-----------------7----------|
--------0-0-----------------|----------------------7-----|
------0-----0--3-3-0--------|--------------------------0-|
----8------------------3--2-|----------------------------|


                                                           
----------------------------|--5--3-5-7--5-7-8--7-8-10----|
----------------------------|-----------------------------|
----------------------------|-----------------------------|
--------0-0-----------------|-----------------------------|
------0-----0--3-3-0--------|-----------------------------|
----8------------------3--2-|-----------------------------|


                                                                 
--7----7-8--7-8-10--8-10-12----|--------------------------------|
-----8-------------------------|--10----------------------------|
-------------------------------|-----12-9-7-9-7-5---5-----------|
-------------------------------|------------------7---7-5-7-----|
-------------------------------|--------------------------------|
-------------------------------|--------------------------------|


                                                     
-----------------------|---------------0------0--2--|
-----------------------|-------------3-----3--------|
-----------------------|--5--5-5-5-5----------------|
-----------------------|----------------------------|
----------7-7-7--8--8--|----------------------------|
-----------------------|----------------------------|


                                                          
---------------0------------|---------------0------0--2--|
--1--1-1-1-1-3-----3--1-0---|--1--1-1-1-1-3-----3--------|
----------------------------|----------------------------|
----------------------------|----------------------------|
----------------------------|----------------------------|
----------------------------|----------------------------|


                                                         
------0----0-2-0--2-3-2--3-5--|--------4-----8---6---4--|
--1-3---3---------------------|--6--6-----6-------------|
------------------------------|-------------------------|
------------------------------|-------------------------|
------------------------------|-------------------------|
------------------------------|-------------------------|


                                                                              
--------4-----8---6---4--|--------4-----8---6---4--|--------4-----6---8---9--|
--6--6-----6-------------|--6--6-----6-------------|--6--6-----6-------------|
-------------------------|-------------------------|-------------------------|
-------------------------|-------------------------|-------------------------|
-------------------------|-------------------------|-------------------------|
-------------------------|-------------------------|-------------------------|


                                                                              
--------6-----9---8---6--|--------6-----9---8---6--|--------6-----9---8---6--|
--7--7-----7-------------|--7--7-----7-------------|--7--7-----7-------------|
-------------------------|-------------------------|-------------------------|
-------------------------|-------------------------|-------------------------|
-------------------------|-------------------------|-------------------------|
-------------------------|-------------------------|-------------------------|


                                                         
--------6-----8---9---10--|------------------------8----|
--7--7-----7--------------|----------------11--11-------|
--------------------------|-----------------------------|
--------------------------|--11-11--10------------------|
--------------------------|-----------------------------|
--------------------------|-----------------------------|


                                                         
-------------9--9--11----|----------------13--13--14----|
-------------------------|------------------------------|
-------5-----------------|------------------------------|
--8-8--------------------|--11-11--10-------------------|
-------------------------|------------------------------|
-------------------------|------------------------------|


                                                                  
----------------18-18---18-18---|--------------------------------|
--------------------------------|------------------13------------|
--------------------------------|----------13-----------15---13--|
---------10---------------------|--15--15------15----------------|
--13-13-------------------------|--------------------------------|
--------------------------------|--------------------------------|


                                                                  
--------------------------------|--------------------------------|
------------------13------------|------------------13------------|
----------13-----------15---13--|----------13-----------15---13--|
--15--15------15----------------|--15--15------15----------------|
--------------------------------|--------------------------------|
--------------------------------|--------------------------------|


                                                               
--------------------------------|------------------9---8---6--|
-----------------------13---14--|----------11-----------------|
----------13------15------------|--11--11------11-------------|
--15--15------15----------------|-----------------------------|
--------------------------------|-----------------------------|
--------------------------------|-----------------------------|


                                                                               
--------6-----9---8---6--|--------6-----9---8---6--|--------6-----8---9---10--|
--7--7-----7-------------|--7--7-----7-------------|--7--7-----7--------------|
-------------------------|-------------------------|--------------------------|
-------------------------|-------------------------|--------------------------|
-------------------------|-------------------------|--------------------------|
-------------------------|-------------------------|--------------------------|


                                                                      
-----------------------|----------------------|----------------------|
-----------------------|----------------------|----------------------|
-----------------------|----------------------|----------------------|
-------------7---------|--6---------7---------|--6---------7---------|
--11----8---------8----|-------8---------8----|-------8---------8----|
-----------------------|----------------------|----------------------|


                                                                             
----------------------|--------------------------|--------------------------|
----------------------|--------------------------|--------------------------|
----------------------|--------------2--2--------|--1--1--------2--2--------|
--6---------7---------|--6--6--3--3--------3--3--|--------3--3--------3--3--|
-------8---------8----|--------------------------|--------------------------|
----------------------|--------------------------|--------------------------|


                                                                                
--------------------------|--------------------------|--1--1--4--1--8---6---4--|
--------------------------|--------------------------|-------------------------|
--1--1--------2--2--------|--1--1--------2--2--------|-------------------------|
--------3--3--------3--3--|--------3--3--------3--3--|-------------------------|
--------------------------|--------------------------|-------------------------|
--------------------------|--------------------------|-------------------------|


                                                                              
--------4-----8---6---4--|--------4-----8---6---4--|--------4-----6---8---9--|
--6--6-----6-------------|--6--6-----6-------------|--6--6-----6-------------|
-------------------------|-------------------------|-------------------------|
-------------------------|-------------------------|-------------------------|
-------------------------|-------------------------|-------------------------|
-------------------------|-------------------------|-------------------------|


                                                                              
--------6-----9---8---6--|--------6-----9---8---6--|--------6-----9---8---6--|
--7--7-----7-------------|--7--7-----7-------------|--7--7-----7-------------|
-------------------------|-------------------------|-------------------------|
-------------------------|-------------------------|-------------------------|
-------------------------|-------------------------|-------------------------|
-------------------------|-------------------------|-------------------------|


                                                         
--------6-----8---9---10--|------------------------8----|
--7--7-----7--------------|----------------11--11-------|
--------------------------|-----------------------------|
--------------------------|--11-11--10------------------|
--------------------------|-----------------------------|
--------------------------|-----------------------------|


                                                         
-------------9--9--11----|----------------13--13--14----|
-------------------------|------------------------------|
-------5-----------------|------------------------------|
--8-8--------------------|--11-11--10-------------------|
-------------------------|------------------------------|
-------------------------|------------------------------|


                                                                  
----------------18-18---18-18---|--------------------------------|
--------------------------------|------------------13------------|
--------------------------------|----------13-----------15---13--|
---------10---------------------|--15--15------15----------------|
--13-13-------------------------|--------------------------------|
--------------------------------|--------------------------------|


                                                                  
--------------------------------|--------------------------------|
------------------13------------|------------------13------------|
----------13-----------15---13--|----------13-----------15---13--|
--15--15------15----------------|--15--15------15----------------|
--------------------------------|--------------------------------|
--------------------------------|--------------------------------|


                                                               
--------------------------------|------------------9---8---6--|
-----------------------13---14--|----------11-----------------|
----------13------15------------|--11--11------11-------------|
--15--15------15----------------|-----------------------------|
--------------------------------|-----------------------------|
--------------------------------|-----------------------------|


                                                                               
--------6-----9---8---6--|--------6-----9---8---6--|--------6-----8---9---10--|
--7--7-----7-------------|--7--7-----7-------------|--7--7-----7--------------|
-------------------------|-------------------------|--------------------------|
-------------------------|-------------------------|--------------------------|
-------------------------|-------------------------|--------------------------|
-------------------------|-------------------------|--------------------------|


                                                                      
-----------------------|----------------------|----------------------|
-----------------------|----------------------|----------------------|
-----------------------|----------------------|----------------------|
-------------7---------|--6---------7---------|--6---------7---------|
--11----8---------8----|-------8---------8----|-------8---------8----|
-----------------------|----------------------|----------------------|


                                                                             
----------------------|--------------------------|--------------------------|
----------------------|--------------------------|--------------------------|
----------------------|--------------2--2--------|--1--1--------2--2--------|
--6---------7---------|--6--6--3--3--------3--3--|--------3--3--------3--3--|
-------8---------8----|--------------------------|--------------------------|
----------------------|--------------------------|--------------------------|


                                                      
--------------------------|--------------------------|
--------------------------|--------------------------|
--1--1--------2--2--------|--1--1--------2--2--------|
--------3--3--------3--3--|--------3--3--------3--3--|
--------------------------|--------------------------|
--------------------------|--------------------------|


                                                            
--2-2--2-5-4-2----0-1-2------|--5-4-5--4-----4-4--4-7-5-4--|
-----------------------------|------------5----------------|
-----------------------------|-----------------------------|
------------------------4--4-|-----------------------------|
-----------------------------|-----------------------------|
-----------------------------|-----------------------------|



----2-3-4------7-5-7--5--4--|--5-5--5-9-7-5----3-4-5------|
----------------------------|-----------------------------|
----------1--1--------------|------------------------2--2-|
----------------------------|-----------------------------|
----------------------------|-----------------------------|
----------------------------|-----------------------------|


                                                                
--9-7-9--7--5--7-7--7-10-9-7--|-----8-9------12-13-----13--16--|
------------------------------|--------------------14----------|
------------------------------|---------6--6-------------------|
------------------------------|--------------------------------|
------------------------------|--------------------------------|
------------------------------|--------------------------------|


                                                                      
-------------------------------------|------------------------7-5-4--|
-------------------------------------|--10-9-10--9-----9-9--9--------|
------------14-13-11----9-10-11------|--------------9----------------|
--16-16--16--------------------------|-------------------------------|
--------------------------------9--9-|-------------------------------|
-------------------------------------|-------------------------------|


                                                           
----2-3-4------7-5-7--5--4--|--5-5--5-9-7-5----3-4-5------|
----------------------------|-----------------------------|
----------1--1--------------|------------------------2--2-|
----------------------------|-----------------------------|
----------------------------|-----------------------------|
----------------------------|-----------------------------|


                                                                
--9-7-9--7--5--7-7--7-10-9-7--|-----8-9------12-13-----13--16--|
------------------------------|--------------------14----------|
------------------------------|---------6--6-------------------|
------------------------------|--------------------------------|
------------------------------|--------------------------------|
------------------------------|--------------------------------|


                                               
----------------------------------------------|
----------------------------------------------|
----------------------------------------------|
----------------12-12-12-12-12-12-12-12-12-12-|
--17-17--14-14--------------------------------|
----------------------------------------------|


                                               
----------------------------------------------|
----------------------------------------14-14-|
---------------------------------13-13--------|
--12-11-12-12-12-12-12-12-12-12---------------|
----------------------------------------------|
----------------------------------------------|


                                                   
--------------------------------------------------|
--14-14-14-14-14-14-14-14-14-12-14-14-14-14-14-14-|
--------------------------------------------------|
--------------------------------------------------|
--------------------------------------------------|
--------------------------------------------------|


                                                                    
----------------------------------|-----------------------4-4--9-9-|
----------------------------------|--------------------------------|
--11-11--9-9--7-7-7-7-7-7-7-7-7-7-|--7-6-7-7-7-7-7-7-7-7-----------|
----------------------------------|--------------------------------|
----------------------------------|--------------------------------|
----------------------------------|--------------------------------|


                                                                              
--9-9-9-9-9-9-9-9-9-9-12-12-12-12-12-12-|--14-14-14-14-14-14-----------------|
----------------------------------------|------------------------------------|
----------------------------------------|--------------------------11-11--11-|
----------------------------------------|------------------------------------|
----------------------------------------|------------------------------------|
----------------------------------------|------------------------------------|


                                                            
-----------------------5-4-5--|--4-----4-4--4-7-5-4----2-3-|
--10-9-7------6-7-------------|-----5----------------------|
------------9-----------------|----------------------------|
------------------4--4--------|----------------------------|
------------------------------|----------------------------|
------------------------------|----------------------------|


                                                            
--4------7-5-7--5--4--5-5--5-|--9-7-5----3-4-5------9-7-9--|
-----------------------------|-----------------------------|
----1--1---------------------|-----------------2--2--------|
-----------------------------|-----------------------------|
-----------------------------|-----------------------------|
-----------------------------|-----------------------------|


                                                                   
--7--5--7-7--7-10-9-7-----8-|--9------12-13-----13--16------------|
----------------------------|---------------14--------------------|
----------------------------|----6--6-----------------------------|
----------------------------|---------------------------16-16--16-|
----------------------------|-------------------------------------|
----------------------------|-------------------------------------|


                                                                  
------------------------------------|---------------7-5-4----2-3-|
---------------------------10-9-10--|--9-----9-9--9--------------|
--14-13-11----9-10-11---------------|-----9----------------------|
------------------------------------|----------------------------|
----------------------9--9----------|----------------------------|
------------------------------------|----------------------------|


                                                            
--4------7-5-7--5--4--5-5--5-|--9-7-5----3-4-5------9-7-9--|
-----------------------------|-----------------------------|
----1--1---------------------|-----------------2--2--------|
-----------------------------|-----------------------------|
-----------------------------|-----------------------------|
-----------------------------|-----------------------------|


                                                                   
--7--5--7-7--7-10-9-7-----8-|--9------12-13-----13--16------------|
----------------------------|---------------14--------------------|
----------------------------|----6--6-----------------------------|
----------------------------|-------------------------------------|
----------------------------|---------------------------17-17--14-|
----------------------------|-------------------------------------|


                                                 
------------------------------------------------|
------------------------------------------------|
------------------------------------------------|
------12-12-12-12-12-12-12-12-12-12-12-11-12-12-|
--14--------------------------------------------|
------------------------------------------------|


                                               
----------------------------------------------|
----------------------------14-14-14-14-14-14-|
---------------------13-13--------------------|
--12-12-12-12-12-12---------------------------|
----------------------------------------------|
----------------------------------------------|


                                                
-----------------------------------------------|
--14-14-14-14-14-12-14-14-14-14-14-14----------|
--------------------------------------11-11--9-|
-----------------------------------------------|
-----------------------------------------------|
-----------------------------------------------|


                                                                   
---------------------------------|---------------4-4--9-9-9-9-9-9-|
---------------------------------|--------------------------------|
--9--7-7-7-7-7-7-7-7-7-7-7-6-7-7-|--7-7-7-7-7-7-------------------|
---------------------------------|--------------------------------|
---------------------------------|--------------------------------|
---------------------------------|--------------------------------|


                                                                            
--9-9-9-9-9-9-12-12-12-12-12-12-14-14-14-14-|--14-14-----------------------|
--------------------------------------------|------------------------------|
--------------------------------------------|------------------------------|
--------------------------------------------|------------------------------|
--------------------------------------------|------------------------------|
--------------------------------------------|--------------12--12--12--12--|


                                                                 
----------------------------------|-----------------------------|
----------------------------------|-----------------------------|
----------------------------------|------------------10-9-------|
----------------------------------|-----------------------------|
----------------------------------|-----------------------------|
--12--12--12--12--12--12--12--12--|--12--12--12--12-------------|


                                                      
--------------------------|--------------------------|
--9-----9--10-------------|--9-----9--10-------------|
-----9---------10-9-------|-----9---------10-9-------|
--------------------------|--------------------------|
--------------------------|--------------------------|
--------------------------|--------------------------|


                                                                              
--------------------------|-------------------------|--7-----7--8------------|
--9-----9--10-------------|--9-----9--10--9-8-------|-----8--------9-8-------|
-----9---------10-9-------|-----9-------------------|------------------------|
--------------------------|-------------------------|------------------------|
--------------------------|-------------------------|------------------------|
--------------------------|-------------------------|------------------------|


                                                                           
--7-----7--8------------|--7-----7--8------------|--7-----7--8--7-6-------|
-----8--------9-8-------|-----8--------9-8-------|-----8------------------|
------------------------|------------------------|------------------------|
------------------------|------------------------|------------------------|
------------------------|------------------------|------------------------|
------------------------|------------------------|------------------------|


                                                                           
--------------9-8-------|--------------7-6-------|--------------9-8-------|
------------------------|------------------------|------------------------|
--7--7--7--7------------|--9--9--9--9------------|--7--7--7--7------------|
------------------------|------------------------|------------------------|
------------------------|------------------------|------------------------|
------------------------|------------------------|------------------------|


                                                                
------------------10--11--10-8-|---6-8-----5--5--10--11--10-13-|
--------------10---------------|--------8----------------------|
--9--9--9--9-------------------|-------------------------------|
-------------------------------|-------------------------------|
-------------------------------|-------------------------------|
-------------------------------|-------------------------------|


                                                                      
---11-15--------------17--22------|------17--22--------------17--17--|
------------------15----------22--|--------------22------18----------|
----------12--14------------------|--19--------------19--------------|
----------------------------------|----------------------------------|
----------------------------------|----------------------------------|
----------------------------------|----------------------------------|


                                                                          
------13--17--17--------------------|----------------------10--11--10-13-|
--15------------------15--16--15-13-|------13------10--10----------------|
------------------14----------------|---15-----12------------------------|
------------------------------------|------------------------------------|
------------------------------------|------------------------------------|
------------------------------------|------------------------------------|


                                                                      
---11-15--------------17--22------|------17--22--------------17--17--|
------------------15----------22--|--------------22------18----------|
----------12--14------------------|--19--------------19--------------|
----------------------------------|----------------------------------|
----------------------------------|----------------------------------|
----------------------------------|----------------------------------|


                                                            
------13--17----------------|------------------------------|
--15------------------------|------------------------------|
----------------------------|--13------13--14--------------|
----------------15-14-------|------14----------15-14-------|
----------------------------|------------------------------|
----------------------------|------------------------------|


                                                              
------------------------------|------------------------------|
------------------------------|------------------------------|
--13------13--14--------------|--13------13--14--------------|
------14----------15-14-------|------14----------15-14-------|
------------------------------|------------------------------|
------------------------------|------------------------------|


                                                              
------------------------------|------------------------------|
------------------------------|--12------12--13--------------|
--13------13--14--13-12-------|------12----------13-12-------|
------14----------------------|------------------------------|
------------------------------|------------------------------|
------------------------------|------------------------------|


                                                              
------------------------------|------------------------------|
--12------12--13--------------|--12------12--13--------------|
------12----------13-12-------|------12----------13-12-------|
------------------------------|------------------------------|
------------------------------|------------------------------|
------------------------------|------------------------------|


                                                            
------------------------------|------------------9-8-------|
--12------12--13--12-11-------|----------------------------|
------12----------------------|----------------------------|
------------------------------|--12--12--12--12------------|
------------------------------|----------------------------|
------------------------------|----------------------------|


                                                  
--------------7-6-------|--------------9-8-------|
------------------------|------------------------|
--9--9--9--9------------|--7--7--7--7------------|
------------------------|------------------------|
------------------------|------------------------|
------------------------|------------------------|


                                                                
------------------10--11--10-8-|---6-8-----5--5--10--11--10-13-|
--------------10---------------|--------8----------------------|
--9--9--9--9-------------------|-------------------------------|
-------------------------------|-------------------------------|
-------------------------------|-------------------------------|
-------------------------------|-------------------------------|


                                                                      
---11-15--------------17--22------|------17--22--------------17--17--|
------------------15----------22--|--------------22------18----------|
----------12--14------------------|--19--------------19--------------|
----------------------------------|----------------------------------|
----------------------------------|----------------------------------|
----------------------------------|----------------------------------|


                                                                          
------13--17--17--------------------|----------------------10--11--10-13-|
--15------------------15--16--15-13-|------13------10--10----------------|
------------------14----------------|---15-----12------------------------|
------------------------------------|------------------------------------|
------------------------------------|------------------------------------|
------------------------------------|------------------------------------|


                                                                      
---11-15--------------17--22------|------17--22--------------17--17--|
------------------15----------22--|--------------22------18----------|
----------12--14------------------|--19--------------19--------------|
----------------------------------|----------------------------------|
----------------------------------|----------------------------------|
----------------------------------|----------------------------------|


                                                          
------13--17------------|--------------------------------|
--15--------------------|--------------------------------|
------------------------|--------------------------------|
------------------------|-----------------------------13-|
------------------------|---------13-15---------15-16----|
------------------------|---15-16------------------------|


                                                                             
----------------------------|----4--3---------------|-----------------------|
----------------------------|------------4--2-------|-------1---------1-2-4-|
--12--10-------10-8-6-8--6--|--------------------3--|--0--------------------|
----------------------------|-----------------------|-----------------------|
----------------------------|-----------------------|-----------------------|
----------------------------|-----------------------|-----------------------|


                                                                           
--3--1-------1-----------|----4--3---------------|------------------------|
---------------4-2-4--2--|------------4--2-------|-------1--1-------------|
-------------------------|--------------------3--|--0---------------------|
-------------------------|-----------------------|------------1---4-------|
-------------------------|-----------------------|--------------------3---|
-------------------------|-----------------------|------------------------|


                                                                             
--------------------------|------------------------|------------------------|
--1--1-------------1--1---|------------1--1--------|----------------2-------|
--------------------------|------------------------|-------0--0-3-------0---|
-------1---4------------1-|----4------------1---4--|------------------------|
---------------3----------|--------3---------------|---3--------------------|
--------------------------|------------------------|------------------------|


                                                     
--------------------------|------------3--3-----4-4-|
-----------2--------------|----2--------------------|
--0--0-3-------0---0--0-3-|--------0--------3-------|
--------------------------|-------------------------|
--------------------------|-------------------------|
--------------------------|-------------------------|


                                             
--4-6-6-6-25--20----20----------------------|
-----------------21----21----21-------------|
--------------------------22----22----22----|
-----------------------------------22----22-|
--------------------------------------------|
--------------------------------------------|


                                                                          
--------------------------------------------|----------------------------|
--------------------------------------------|----------------------------|
-----22-------------------------------------|----------------12--10------|
--------22----22-------18-------------------|-------------13-------------|
--23-------23----23-20----20-------13-15----|-------15-16----------------|
-----------------------------15-16----------|----------------------------|


                                                                           
------------------4--3----|-----------------------|-------------3--1------|
--------------------------|--4--2------------1----|-------1-2-4-----------|
---10-8-6-8--6------------|----------3--0---------|-----------------------|
--------------------------|-----------------------|-----------------------|
--------------------------|-----------------------|-----------------------|
--------------------------|-----------------------|-----------------------|


                                                                             
---1-------------4--3----|-------------------------|------------------------|
-----4-2-4--2------------|--4--2------------1--1---|------------1--1--------|
-------------------------|----------3--0-----------|------------------------|
-------------------------|-----------------------1-|----4------------1---4--|
-------------------------|-------------------------|--------3---------------|
-------------------------|-------------------------|------------------------|


                                                                             
------------------------|--------------------------|------------------------|
-------1--1-------------|--1--1--------------------|----2----------------2--|
------------------------|-------------------0--0-3-|--------0---0--0-3------|
------------1---4-------|-------1---4--------------|------------------------|
---3----------------3---|---------------3----------|------------------------|
------------------------|--------------------------|------------------------|


                                                           
------------------------|--3--3-----4-4-4-6-6-6-25--20----|
----------------2-------|------------------------------21-|
---0---0--0-3-------0---|-------3-------------------------|
------------------------|---------------------------------|
------------------------|---------------------------------|
------------------------|---------------------------------|


                                                   
--20----------------------------------------------|
-----21----21-------------------------------------|
--------22----22----22-------22-------------------|
-----------------22----22-------22----22-------18-|
--------------------------23-------23----23-20----|
--------------------------------------------------|


                                                                            
----------------------------11-11-11-11-------|-----------------7----------|
--------------14-14-14-14---------------12-12-|--12-12-------10------------|
----------------------------------------------|---------9-10---------------|
----------------------------------------------|----------------------------|
--20-------13---------------------------------|----------------------------|
-----15-16------------------------------------|----------------------------|


                                                            
------9------------|--------------15----|------------------|
-------------------|--------------------|------------------|
-------------------|--------------------|------------------|
-------------------|--------------------|------------------|
-------------------|--------------------|------------------|
-------------------|--------------------|------------------|


                                                             
------11------------|--------------17----|------------------|
--------------------|--------------------|------------------|
--------------------|--------------------|------------------|
--------------------|--------------------|------------------|
--------------------|--------------------|------------------|
--------------------|--------------------|------------------|


                                                       
--------------6--11------|--13------------8-----------|
----------4--------------|------------------------4---|
------3------------------|--------------5---5-3-------|
---------------------10--|----------------------------|
-------------------------|----------8-8---------------|
-------------------------|--------8-------------------|


                                                                         --6--11
------13------------8---|--6---18-16-14-13-11-9-8-6-4-6-18-16-14-|---------------
----------------|----------------------------------------|-----------------------
--5---5-|----------------------------------------|---------10--------------------
|----------------------------------------|---------------------8-8-------|-------
---------------------------------|-------------------8-----------|---------------
-------------------------|

                                                                           
--13-11-9-8-6-4-6-18-16-14-13-11-9-8-----|--------------------------------|
-----------------------------------------|----------------------1---1---1-|
---------------------------------------5-|----5---5---3-------------------|
-----------------------------------------|--------------------------------|
-----------------------------------------|--3---3-------1--1--3---3---3---|
-------------------------------------8---|----------6---------------------|


                                                                  
-------------------------------|---------------------------------|
--------------1---1---1--------|-----4-----3-----2-----1-------1-|
----2---------------------1----|-------3-0---2-----1-------------|
-------------------------------|---------------4-----4---4-1-----|
--0---0--0--3---3---3----------|-----------------------------3---|
------------------------4---4--|--4------------------------------|


                                                                 
--------------------------------|-------------------------------|
----1---1-------------1---1---1-|-------------------------------|
------------3-------------------|----2-------1-1-1-1-1-1-1--1-3-|
--------------------------------|-------------------------------|
--3---3---1---1--1--3---3---3---|--0---0--0---------------------|
--------------------------------|-------------------------------|


                                   
----4-4-4-4-4-4-4--6--11-15-14-14-|
----------------------------------|
----------------------------------|
----------------------------------|
----------------------------------|
----------------------------------|


                                                   
--14-11-11-11-14-14-------13-13-------14-14-14-11-|
--------------------15-15-------14-14-------------|
--------------------------------------------------|
--------------------------------------------------|
--------------------------------------------------|
--------------------------------------------------|


                                                                        
--11-11-16-16-13-13-18-21-------------|--------------13------------8---|
--------------------------------------|------16------------------------|
--------------------------------------|--15----------------------5---5-|
--------------------------------------|--------------------------------|
---------------------------------18---|----------15----------8-8-------|
----------------------------18--------|--------------------8-----------|


                                                                  
----------6--11------13----|----------8---6---18-16-14-13-11-9-8-|
------4--------------------|-------------------------------------|
--3------------------------|--------5---5------------------------|
-----------------10--------|-------------------------------------|
---------------------------|----8-8------------------------------|
---------------------------|--8----------------------------------|


                                                                              
--6-4-6-18-16-14-13-11-9-8-6-4-6-18-16-14-|--13-11-9-8-----------------------|
------------------------------------------|----------------------------------|
------------------------------------------|--------------5---5---5---3-------|
------------------------------------------|----------------------------------|
------------------------------------------|----------------3---3-------1--1--|
------------------------------------------|------------8-----------6---------|


                                                                  
--------------------------------|--------------------------------|
----1---1---1-------------1---1-|----1-----------4-----3-----2---|
----------------2---------------|--------1---------3-0---2-----1-|
--------------------------------|--------------------------4-----|
--3---3---3---0---0--0--3---3---|--3-----------------------------|
--------------------------------|------4---4--4------------------|


                                                                  
--------------------------------|--------------------------------|
----1-------1---1---1-----------|----1---1---1-------------------|
------------------------3-------|----------------2-------1-1-1-1-|
--4---4-1-----------------------|--------------------------------|
----------3---3---3---1---1--1--|--3---3---3---0---0--0----------|
--------------------------------|--------------------------------|


                                                                               
---------------4-4-4-4-4-4-4--|--6--11-15-14-14-14-11-11-11-14-14-------13-13-|
------------------------------|-----------------------------------15-15-------|
--1-1-1--1-3------------------|-----------------------------------------------|
------------------------------|-----------------------------------------------|
------------------------------|-----------------------------------------------|
------------------------------|-----------------------------------------------|


                                                                      
--------14-14-14-11-11-11-16-16-13-13-18-21---|----------------------|
--14-14---------------------------------------|----------------------|
----------------------------------------------|----------------------|
----------------------------------------------|------------21--------|
----------------------------------------------|----------------------|
----------------------------------------------|--20------------------|


                                                                 
----------------------|--------------------|--------------------|
----------------------|--------------------|--------------------|
----------------------|--------------------|--------------------|
--19------------------|--------------------|--------------------|
------------20--------|--------------------|--------------------|
----------------------|--17----------------|--17----------------|


                                                                     
----------------------|--------------------|------------------------|
----------------------|--------------------|------------------------|
----------------------|----------------16--|--------------------14--|
--17--------------17--|--------------------|----------15---17-------|
----------------------|--------------------|------------------------|
----------------------|--------------------|------------------------|


                                                                             
----------------------|--------------------------|--------------------------|
----------------------|--------------------------|--------------------------|
----------------------|--------------------------|--------------------------|
--14------------------|--15--------15---14---12--|--10----------------------|
------------15--------|--------------------------|----------------------10--|
----------------------|--------------------------|------------12---13-------|


                                                                        
--------------------------|-----------------------|--------------------|
-------------10-----------|-----------------------|--8--------------8--|
----------12----12--------|--------------------7--|--------------------|
--12----------------------|--9--------9---10------|--------------------|
--------------------------|-----------------------|--------------------|
--------------------------|-----------------------|--------------------|


                                                               
----------------7--|------------------5--|--------------------|
-------------------|----------6---8------|--5-----------------|
-------------------|---------------------|-----------5--------|
-------------------|---------------------|--------------------|
-------------------|---------------------|--------------------|
-------------------|---------------------|--------------------|


                                                                     
----------------------|-----------0---1---3--|-----------0----------|
--3--------3---1---0--|--1-------------------|--3------3---3--------|
----------------------|----------------------|----------------------|
----------------------|----------------------|----------------------|
----------------------|----------------------|----------------------|
----------------------|----------------------|----------------------|


                                                                              
--3-5-7--5-7-8-----------|--8--8--7--8----8--7--8--|--7--7--5--7----7--5--7--|
----------------6--------|-------------------------|-------------------------|
-------------------------|-------------------------|-------------------------|
-------------------------|-------------------------|-------------------------|
-------------------------|-------------------------|-------------------------|
-------------------------|-------------------------|-------------------------|


                                                   
--5--5--3--5--5---7---8--|--12----10----8----7----|
-------------------------|------------------------|
-------------------------|------------------------|
-------------------------|------------------------|
-------------------------|------------------------|
-------------------------|------------------------|


                                                              
--10--10--8--10----10--8--10--|--10--10--9--10----10--9--10--|
------------------------------|------------------------------|
------------------------------|------------------------------|
------------------------------|------------------------------|
------------------------------|------------------------------|
------------------------------|------------------------------|


                                                                              
--10--10--8--10--10---12---13--|--12--------13--------|----------------------|
-------------------------------|----------------------|----------------------|
-------------------------------|----------------------|--12--------------12--|
-------------------------------|----------------------|----------------------|
-------------------------------|----------------------|----------------------|
-------------------------------|----------------------|----------------------|


                                                                    
--------------------|------------------------|---------------------|
----------------12--|--------------------10--|---------------------|
--------------------|----------10---12-------|--9------------------|
--------------------|------------------------|-----------10--------|
--------------------|------------------------|---------------------|
--------------------|------------------------|---------------------|


                                                                       
------------------------|----------------------|-----------5-3--------|
------------------------|----------------------|---------8------------|
--10--------10---9---7--|--5----------------0--|--7-------------------|
------------------------|----------------------|----------------------|
------------------------|-----------7---8------|----------------------|
------------------------|----------------------|----------------------|


                                                                
----------------------|--3--------------3--|----------------7--|
-------------------3--|--------------------|-------------------|
--4--------4---5------|--------------------|-------------------|
----------------------|--------------------|-------------------|
----------------------|--------------------|-------------------|
----------------------|--------------------|-------------------|


                                                                  
------------------5--|--------------------|----------------------|
----------6---8------|--5-----------------|--3--------3---1---0--|
---------------------|-----------5--------|----------------------|
---------------------|--------------------|----------------------|
---------------------|--------------------|----------------------|
---------------------|--------------------|----------------------|


                                                                        
-----------0---1---3--|-----------0----------|--3-5-7--5-7-8-----------|
--1-------------------|--3------3---3--------|----------------6--------|
----------------------|----------------------|-------------------------|
----------------------|----------------------|-------------------------|
----------------------|----------------------|-------------------------|
----------------------|----------------------|-------------------------|


                                                                              
--8--8--7--8----8--7--8--|--7--7--5--7----7--5--7--|--5--5--3--5--5---7---8--|
-------------------------|-------------------------|-------------------------|
-------------------------|-------------------------|-------------------------|
-------------------------|-------------------------|-------------------------|
-------------------------|-------------------------|-------------------------|
-------------------------|-------------------------|-------------------------|


                                                        
--12----10----8----7----|--10--10--8--10----10--8--10--|
------------------------|------------------------------|
------------------------|------------------------------|
------------------------|------------------------------|
------------------------|------------------------------|
------------------------|------------------------------|


                                                               
--10--10--9--10----10--9--10--|--10--10--8--10--10---12---13--|
------------------------------|-------------------------------|
------------------------------|-------------------------------|
------------------------------|-------------------------------|
------------------------------|-------------------------------|
------------------------------|-------------------------------|


                                                    
--12--------13--------|----------------------------|
----------------------|-------------------------12-|
----------------------|-------------------12-14----|
----------------------|----------14--14------------|
----------------------|----------------------------|
----------------------|----------------------------|


                                                               
--------------------8-10-12----|------------------12----------|
-------------------------------|----------------------14--11--|
-------------------------------|------------------------------|
--14-14--12---10---------------|----12---13---14--------------|
-------------------------------|------------------------------|
-------------------------------|------------------------------|


                      
--------------------||
--10----------------||
--------------------||
--------------------||
--------------------||
--------------------|| 

[Java]Swing基础编程【4】JFileChooser 和 吉他谱浏览器设想

本章介绍 JFileChooser的用法,并用FileFiter文件过滤器指定可用文件,提供文件选择对话框预览图片,为不同的目录在文件选择对话框中提供不同的图标显示。 代码如下: impo...

一种音乐代码——吉他谱

一种音乐代码——吉他谱标签:音乐 吉他16340108 数据科学与计算机学院目录一种音乐代码吉他谱 前言 谱子的分类 六线谱 和弦1谱 简谱 五线谱 六线吉他谱的构成 调号 拍号和速度标记 和弦图 ...
  • lzj320
  • lzj320
  • 2016年10月07日 01:10
  • 362

Android - 自定义View 实现 文本吉他谱的 显示 实现

1.背景     难点1 :显示:文本吉他谱是txt ,需要 和弦键与对应的文字对应显示出来;     难点2: 控制:需要通过音量键进行动态的控制,+ ,向下控制当前的和弦键,-,向上控制当前的...

爬取吉他谱并生成pdf

背景初衷作为一直曾经致力于做文艺青年的爬虫狗,偶尔还是想撸个吉他的,也买过三月通之类的书,但是上面的谱子要么太老,要么太难,所以一直以来斗志利于在网上找谱,打印下来或者用kindle或ipad看,着实...

Android - 自定义View 实现 文本吉他谱的 动态控制 实现

1.背景      前天同学推荐,要做一个吉他谱的显示,与控制功能;想了想,感觉难度有些大,主要有几个难点:     难点1 :显示:文本吉他谱是txt ,需要 和弦键与对应的文字对应显示出来; ...

[Java]吉他谱浏览器 0.1

需求介绍:喜欢弹吉他的朋友应该有这样的体会,对于一些图片类型的吉他谱,一首曲子通常有好几页,这时如果在弹吉他时翻页的话会影响自己演奏。解决方案有两个并各有缺陷。 1、提供自动向下滚动功能  (下滚速...

someone like you吉他谱

  • 2014年05月10日 21:20
  • 207KB
  • 下载

吉他谱管理器

  • 2014年09月27日 18:16
  • 1.88MB
  • 下载

魂斗罗归来 H5正式上线跨越时光与你并肩作站

正版《魂斗罗:归来》动作射击手游,丰富弹幕、武器带你挑战万变战场;还原经典魂斗罗玩法与兄弟一起挑战BOSS吧...
  • yylurex
  • yylurex
  • 2017年06月09日 18:45
  • 430

silence 小熊饼干 gtp 吉他谱

  • 2012年12月12日 21:24
  • 47KB
  • 下载
内容举报
返回顶部
收藏助手
不良信息举报
您举报文章:魂斗罗 吉他谱
举报原因:
原因补充:

(最多只允许输入30个字)